ISO-10303-21;
HEADER;
/****************************************************************
 * Generated by software with PDE/Lib inside                    *
 * PDE/Lib Version 3.2.6, created Mon Nov 19, 2001 at 18:43:38  *
 * International Technegroup Inc. (www.iti-oh.com)              *
 ****************************************************************/
FILE_DESCRIPTION((''),'2;1');
FILE_NAME('B:\\MITARBEITER\\Gembarski\\Inventor\\TEMP\\Konvertierungsformate\\COB_Spezial_Zubehoer\\STP\\CR 20 CX.stp','2007-01-02T17:37:31',('gembarski'),(''),'Autodesk Inventor 7','Autodesk Inventor 7','');
FILE_SCHEMA(('AUTOMOTIVE_DESIGN { 1 0 10303 214 1 1 1 1 }'));
ENDSEC;
DATA;
#5=APPLICATION_CONTEXT('automotive design');
#6=APPLICATION_PROTOCOL_DEFINITION('Draft International Standard','automotive_design',1998,#5);
#7=PRODUCT_CONTEXT('None',#5,'mechanical');
#8=PRODUCT('CR 20 CX','CR 20 CX','None',(#7));
#9=PRODUCT_RELATED_PRODUCT_CATEGORY('part','description',(#8));
#10=PRODUCT_DEFINITION_FORMATION('None','None',#8);
#11=PRODUCT_DEFINITION_CONTEXT('part definition',#5,'design');
#12=PRODUCT_DEFINITION('None','None',#10,#11);
#18=(NAMED_UNIT(*)PLANE_ANGLE_UNIT()SI_UNIT($,.RADIAN.));
#19=DIMENSIONAL_EXPONENTS(0.0,0.0,0.0,0.0,0.0,0.0,0.0);
#20=PLANE_ANGLE_MEASURE_WITH_UNIT(PLANE_ANGLE_MEASURE(0.017453292500000),#18);
#24=(CONVERSION_BASED_UNIT('DEGREE',#20)NAMED_UNIT(#19)PLANE_ANGLE_UNIT());
#28=(NAMED_UNIT(*)SI_UNIT($,.STERADIAN.)SOLID_ANGLE_UNIT());
#32=(LENGTH_UNIT()NAMED_UNIT(*)SI_UNIT(.MILLI.,.METRE.));
#34=UNCERTAINTY_MEASURE_WITH_UNIT(LENGTH_MEASURE(0.000001000000000),#32,'DISTANCE_ACCURACY_VALUE','');
#36=(GEOMETRIC_REPRESENTATION_CONTEXT(3)GLOBAL_UNCERTAINTY_ASSIGNED_CONTEXT((#34))GLOBAL_UNIT_ASSIGNED_CONTEXT((#24,#28,#32))REPRESENTATION_CONTEXT('None','None'));
#37=AXIS2_PLACEMENT_3D('',#38,#39,#40);
#38=CARTESIAN_POINT('',(0.0,0.0,0.0));
#39=DIRECTION('',(0.0,0.0,1.0));
#40=DIRECTION('',(1.0,0.0,0.0));
#41=SHAPE_REPRESENTATION('',(#37),#36);
#42=PRODUCT_DEFINITION_SHAPE('','',#12);
#43=SHAPE_DEFINITION_REPRESENTATION(#42,#41);
#44=CARTESIAN_POINT('',(-9.055901253505640,0.0,0.0));
#45=DIRECTION('',(0.0,0.0,1.0));
#46=DIRECTION('',(1.0,0.0,0.0));
#47=AXIS2_PLACEMENT_3D('',#44,#45,#46);
#48=SPHERICAL_SURFACE('',#47,9.055901253505640);
#49=CARTESIAN_POINT('',(-0.511350503861454,-1.046371E-015,-3.000000000000004));
#50=VERTEX_POINT('',#49);
#51=CARTESIAN_POINT('',(-0.055381962195552,-1.102209E-015,-1.0));
#52=VERTEX_POINT('',#51);
#53=CARTESIAN_POINT('',(-9.055901253505640,0.0,0.0));
#54=DIRECTION('',(0.0,-1.0,0.0));
#55=DIRECTION('',(0.0,0.0,1.0));
#56=AXIS2_PLACEMENT_3D('',#53,#54,#55);
#57=CIRCLE('',#56,9.055901253505640);
#58=EDGE_CURVE('',#50,#52,#57,.T.);
#59=ORIENTED_EDGE('',*,*,#58,.F.);
#60=CARTESIAN_POINT('',(-0.511350503861454,2.828427124746194,-1.000000000000000));
#61=VERTEX_POINT('',#60);
#62=CARTESIAN_POINT('',(-0.511350503861454,0.0,0.0));
#63=DIRECTION('',(1.0,0.0,0.0));
#64=DIRECTION('',(0.0,1.0,0.0));
#65=AXIS2_PLACEMENT_3D('',#62,#63,#64);
#66=CIRCLE('',#65,3.000000000000004);
#67=EDGE_CURVE('',#50,#61,#66,.T.);
#68=ORIENTED_EDGE('',*,*,#67,.T.);
#69=CARTESIAN_POINT('',(-9.055901253505640,6.661338E-017,-1.0));
#70=DIRECTION('',(0.0,0.0,-1.0));
#71=DIRECTION('',(0.0,-1.0,0.0));
#72=AXIS2_PLACEMENT_3D('',#69,#70,#71);
#73=CIRCLE('',#72,9.000519291310088);
#74=EDGE_CURVE('',#61,#52,#73,.T.);
#75=ORIENTED_EDGE('',*,*,#74,.T.);
#76=EDGE_LOOP('',(#59,#68,#75));
#77=FACE_OUTER_BOUND('',#76,.T.);
#78=ADVANCED_FACE('',(#77),#48,.T.);
#79=CARTESIAN_POINT('',(-11.849999999999937,0.0,0.0));
#80=DIRECTION('',(1.0,0.0,0.0));
#81=DIRECTION('',(0.0,1.0,0.0));
#82=AXIS2_PLACEMENT_3D('',#79,#80,#81);
#83=CONICAL_SURFACE('',#82,2.850000000000001,44.999999999999311);
#84=CARTESIAN_POINT('',(-11.999999999999941,2.700000000000001,0.0));
#85=VERTEX_POINT('',#84);
#86=CARTESIAN_POINT('',(-11.699999999999935,3.000000000000000,0.0));
#87=VERTEX_POINT('',#86);
#88=CARTESIAN_POINT('',(-11.999999999999941,2.700000000000001,0.0));
#89=DIRECTION('',(0.707106781186555,0.707106781186540,0.0));
#90=VECTOR('',#89,0.424264068711933);
#91=LINE('',#88,#90);
#92=EDGE_CURVE('',#85,#87,#91,.T.);
#93=ORIENTED_EDGE('',*,*,#92,.F.);
#94=CARTESIAN_POINT('',(-11.999999999999943,-2.700000000000001,3.306437E-016));
#95=VERTEX_POINT('',#94);
#96=CARTESIAN_POINT('',(-11.999999999999941,0.0,0.0));
#97=DIRECTION('',(1.0,0.0,0.0));
#98=DIRECTION('',(0.0,1.0,0.0));
#99=AXIS2_PLACEMENT_3D('',#96,#97,#98);
#100=CIRCLE('',#99,2.700000000000001);
#101=EDGE_CURVE('',#85,#95,#100,.T.);
#102=ORIENTED_EDGE('',*,*,#101,.T.);
#103=CARTESIAN_POINT('',(-11.699999999999935,-3.000000000000000,3.673819E-016));
#104=VERTEX_POINT('',#103);
#105=CARTESIAN_POINT('',(-11.699999999999935,-3.000000000000000,3.673819E-016));
#106=DIRECTION('',(-0.707106781186557,0.707106781186538,-8.659275E-017));
#107=VECTOR('',#106,0.424264068711934);
#108=LINE('',#105,#107);
#109=EDGE_CURVE('',#104,#95,#108,.T.);
#110=ORIENTED_EDGE('',*,*,#109,.F.);
#111=CARTESIAN_POINT('',(-11.699999999999935,0.0,0.0));
#112=DIRECTION('',(1.0,0.0,0.0));
#113=DIRECTION('',(0.0,1.0,0.0));
#114=AXIS2_PLACEMENT_3D('',#111,#112,#113);
#115=CIRCLE('',#114,3.000000000000000);
#116=EDGE_CURVE('',#87,#104,#115,.T.);
#117=ORIENTED_EDGE('',*,*,#116,.F.);
#118=EDGE_LOOP('',(#93,#102,#110,#117));
#119=FACE_OUTER_BOUND('',#118,.T.);
#120=ADVANCED_FACE('',(#119),#83,.T.);
#121=CARTESIAN_POINT('',(-14.716506350946098,0.0,0.0));
#122=DIRECTION('',(1.0,0.0,0.0));
#123=DIRECTION('',(0.0,1.0,0.0));
#124=AXIS2_PLACEMENT_3D('',#121,#122,#123);
#125=CYLINDRICAL_SURFACE('',#124,1.249999999999999);
#126=CARTESIAN_POINT('',(-17.433012701892221,1.249999999999999,0.0));
#127=VERTEX_POINT('',#126);
#128=CARTESIAN_POINT('',(-11.999999999999975,1.249999999999998,0.0));
#129=VERTEX_POINT('',#128);
#130=CARTESIAN_POINT('',(-17.433012701892221,1.249999999999999,0.0));
#131=DIRECTION('',(1.0,0.0,0.0));
#132=VECTOR('',#131,5.433012701892245);
#133=LINE('',#130,#132);
#134=EDGE_CURVE('',#127,#129,#133,.T.);
#135=ORIENTED_EDGE('',*,*,#134,.F.);
#136=CARTESIAN_POINT('',(-17.433012701892217,-1.249999999999999,1.530758E-016));
#137=VERTEX_POINT('',#136);
#138=CARTESIAN_POINT('',(-17.433012701892221,0.0,0.0));
#139=DIRECTION('',(1.0,0.0,0.0));
#140=DIRECTION('',(0.0,1.0,0.0));
#141=AXIS2_PLACEMENT_3D('',#138,#139,#140);
#142=CIRCLE('',#141,1.249999999999999);
#143=EDGE_CURVE('',#127,#137,#142,.T.);
#144=ORIENTED_EDGE('',*,*,#143,.T.);
#145=CARTESIAN_POINT('',(-11.999999999999975,-1.249999999999998,1.530758E-016));
#146=VERTEX_POINT('',#145);
#147=CARTESIAN_POINT('',(-11.999999999999975,-1.249999999999998,1.530758E-016));
#148=DIRECTION('',(-1.0,0.0,0.0));
#149=VECTOR('',#148,5.433012701892242);
#150=LINE('',#147,#149);
#151=EDGE_CURVE('',#146,#137,#150,.T.);
#152=ORIENTED_EDGE('',*,*,#151,.F.);
#153=CARTESIAN_POINT('',(-11.999999999999975,0.0,0.0));
#154=DIRECTION('',(1.0,0.0,0.0));
#155=DIRECTION('',(0.0,1.0,0.0));
#156=AXIS2_PLACEMENT_3D('',#153,#154,#155);
#157=CIRCLE('',#156,1.249999999999998);
#158=EDGE_CURVE('',#129,#146,#157,.T.);
#159=ORIENTED_EDGE('',*,*,#158,.F.);
#160=EDGE_LOOP('',(#135,#144,#152,#159));
#161=FACE_OUTER_BOUND('',#160,.T.);
#162=ADVANCED_FACE('',(#161),#125,.T.);
#163=CARTESIAN_POINT('',(-17.466506350946112,0.0,0.0));
#164=DIRECTION('',(-1.0,0.0,0.0));
#165=DIRECTION('',(0.0,1.0,0.0));
#166=AXIS2_PLACEMENT_3D('',#163,#164,#165);
#167=CONICAL_SURFACE('',#166,1.375000000000001,75.000000000000099);
#168=CARTESIAN_POINT('',(-17.500000000000004,1.500000000000003,0.0));
#169=VERTEX_POINT('',#168);
#170=CARTESIAN_POINT('',(-17.500000000000004,1.500000000000003,0.0));
#171=DIRECTION('',(0.258819045102525,-0.965925826289067,0.0));
#172=VECTOR('',#171,0.258819045102525);
#173=LINE('',#170,#172);
#174=EDGE_CURVE('',#169,#127,#173,.T.);
#175=ORIENTED_EDGE('',*,*,#174,.F.);
#176=CARTESIAN_POINT('',(-17.500000000000007,-1.500000000000003,1.836910E-016));
#177=VERTEX_POINT('',#176);
#178=CARTESIAN_POINT('',(-17.500000000000004,0.0,0.0));
#179=DIRECTION('',(1.0,0.0,0.0));
#180=DIRECTION('',(0.0,1.0,0.0));
#181=AXIS2_PLACEMENT_3D('',#178,#179,#180);
#182=CIRCLE('',#181,1.500000000000003);
#183=EDGE_CURVE('',#169,#177,#182,.T.);
#184=ORIENTED_EDGE('',*,*,#183,.T.);
#185=CARTESIAN_POINT('',(-17.433012701892217,-1.249999999999999,1.530758E-016));
#186=DIRECTION('',(-0.258819045102551,-0.965925826289060,1.182879E-016));
#187=VECTOR('',#186,0.258819045102527);
#188=LINE('',#185,#187);
#189=EDGE_CURVE('',#137,#177,#188,.T.);
#190=ORIENTED_EDGE('',*,*,#189,.F.);
#191=ORIENTED_EDGE('',*,*,#143,.F.);
#192=EDGE_LOOP('',(#175,#184,#190,#191));
#193=FACE_OUTER_BOUND('',#192,.T.);
#194=ADVANCED_FACE('',(#193),#167,.T.);
#195=CARTESIAN_POINT('',(-19.600000000000005,0.0,0.0));
#196=DIRECTION('',(1.0,0.0,0.0));
#197=DIRECTION('',(0.0,1.0,0.0));
#198=AXIS2_PLACEMENT_3D('',#195,#196,#197);
#199=CYLINDRICAL_SURFACE('',#198,1.500000000000003);
#200=CARTESIAN_POINT('',(-21.700000000000003,1.500000000000002,0.0));
#201=VERTEX_POINT('',#200);
#202=CARTESIAN_POINT('',(-21.700000000000003,1.500000000000002,0.0));
#203=DIRECTION('',(1.0,0.0,0.0));
#204=VECTOR('',#203,4.199999999999999);
#205=LINE('',#202,#204);
#206=EDGE_CURVE('',#201,#169,#205,.T.);
#207=ORIENTED_EDGE('',*,*,#206,.F.);
#208=CARTESIAN_POINT('',(-21.700000000000003,-1.500000000000002,1.836910E-016));
#209=VERTEX_POINT('',#208);
#210=CARTESIAN_POINT('',(-21.700000000000003,0.0,0.0));
#211=DIRECTION('',(1.0,0.0,0.0));
#212=DIRECTION('',(0.0,1.0,0.0));
#213=AXIS2_PLACEMENT_3D('',#210,#211,#212);
#214=CIRCLE('',#213,1.500000000000002);
#215=EDGE_CURVE('',#201,#209,#214,.T.);
#216=ORIENTED_EDGE('',*,*,#215,.T.);
#217=CARTESIAN_POINT('',(-17.500000000000007,-1.500000000000003,1.836910E-016));
#218=DIRECTION('',(-1.0,0.0,0.0));
#219=VECTOR('',#218,4.199999999999996);
#220=LINE('',#217,#219);
#221=EDGE_CURVE('',#177,#209,#220,.T.);
#222=ORIENTED_EDGE('',*,*,#221,.F.);
#223=ORIENTED_EDGE('',*,*,#183,.F.);
#224=EDGE_LOOP('',(#207,#216,#222,#223));
#225=FACE_OUTER_BOUND('',#224,.T.);
#226=ADVANCED_FACE('',(#225),#199,.T.);
#227=CARTESIAN_POINT('',(-21.850000000000005,0.0,0.0));
#228=DIRECTION('',(1.0,0.0,0.0));
#229=DIRECTION('',(0.0,1.0,0.0));
#230=AXIS2_PLACEMENT_3D('',#227,#228,#229);
#231=CONICAL_SURFACE('',#230,1.350000000000004,44.999999999999893);
#232=CARTESIAN_POINT('',(-22.0,1.200000000000006,0.0));
#233=VERTEX_POINT('',#232);
#234=CARTESIAN_POINT('',(-22.0,1.200000000000006,0.0));
#235=DIRECTION('',(0.707106781186548,0.707106781186547,0.0));
#236=VECTOR('',#235,0.424264068711924);
#237=LINE('',#234,#236);
#238=EDGE_CURVE('',#233,#201,#237,.T.);
#239=ORIENTED_EDGE('',*,*,#238,.F.);
#240=CARTESIAN_POINT('',(-22.0,-1.200000000000006,1.469528E-016));
#241=VERTEX_POINT('',#240);
#242=CARTESIAN_POINT('',(-22.0,0.0,0.0));
#243=DIRECTION('',(1.0,0.0,0.0));
#244=DIRECTION('',(0.0,1.0,0.0));
#245=AXIS2_PLACEMENT_3D('',#242,#243,#244);
#246=CIRCLE('',#245,1.200000000000006);
#247=EDGE_CURVE('',#233,#241,#246,.T.);
#248=ORIENTED_EDGE('',*,*,#247,.T.);
#249=CARTESIAN_POINT('',(-21.700000000000003,-1.500000000000002,1.836910E-016));
#250=DIRECTION('',(-0.707106781186548,0.707106781186547,-8.659275E-017));
#251=VECTOR('',#250,0.424264068711924);
#252=LINE('',#249,#251);
#253=EDGE_CURVE('',#209,#241,#252,.T.);
#254=ORIENTED_EDGE('',*,*,#253,.F.);
#255=ORIENTED_EDGE('',*,*,#215,.F.);
#256=EDGE_LOOP('',(#239,#248,#254,#255));
#257=FACE_OUTER_BOUND('',#256,.T.);
#258=ADVANCED_FACE('',(#257),#231,.T.);
#259=CARTESIAN_POINT('',(-9.055901253505640,0.0,0.0));
#260=DIRECTION('',(0.0,0.0,1.0));
#261=DIRECTION('',(1.0,0.0,0.0));
#262=AXIS2_PLACEMENT_3D('',#259,#260,#261);
#263=SPHERICAL_SURFACE('',#262,9.055901253505640);
#264=CARTESIAN_POINT('',(-0.055381962195552,-1.102209E-015,1.000000000000000));
#265=VERTEX_POINT('',#264);
#266=CARTESIAN_POINT('',(-0.511350503861454,-1.046371E-015,3.000000000000004));
#267=VERTEX_POINT('',#266);
#268=CARTESIAN_POINT('',(-9.055901253505640,0.0,0.0));
#269=DIRECTION('',(0.0,-1.0,0.0));
#270=DIRECTION('',(0.0,0.0,1.0));
#271=AXIS2_PLACEMENT_3D('',#268,#269,#270);
#272=CIRCLE('',#271,9.055901253505640);
#273=EDGE_CURVE('',#265,#267,#272,.T.);
#274=ORIENTED_EDGE('',*,*,#273,.F.);
#275=CARTESIAN_POINT('',(-0.511350503861454,2.828427124746194,1.000000000000000));
#276=VERTEX_POINT('',#275);
#277=CARTESIAN_POINT('',(-9.055901253505640,0.0,1.000000000000000));
#278=DIRECTION('',(0.0,0.0,1.0));
#279=DIRECTION('',(0.0,1.0,0.0));
#280=AXIS2_PLACEMENT_3D('',#277,#278,#279);
#281=CIRCLE('',#280,9.000519291310088);
#282=EDGE_CURVE('',#265,#276,#281,.T.);
#283=ORIENTED_EDGE('',*,*,#282,.T.);
#284=CARTESIAN_POINT('',(-0.511350503861454,0.0,0.0));
#285=DIRECTION('',(1.0,0.0,0.0));
#286=DIRECTION('',(0.0,1.0,0.0));
#287=AXIS2_PLACEMENT_3D('',#284,#285,#286);
#288=CIRCLE('',#287,3.000000000000004);
#289=EDGE_CURVE('',#276,#267,#288,.T.);
#290=ORIENTED_EDGE('',*,*,#289,.T.);
#291=EDGE_LOOP('',(#274,#283,#290));
#292=FACE_OUTER_BOUND('',#291,.T.);
#293=ADVANCED_FACE('',(#292),#263,.T.);
#294=CARTESIAN_POINT('',(-6.105675251930696,0.0,0.0));
#295=DIRECTION('',(1.0,0.0,0.0));
#296=DIRECTION('',(0.0,1.0,0.0));
#297=AXIS2_PLACEMENT_3D('',#294,#295,#296);
#298=CYLINDRICAL_SURFACE('',#297,3.000000000000002);
#299=CARTESIAN_POINT('',(-1.500000000000000,3.000000000000002,-3.673819E-016));
#300=VERTEX_POINT('',#299);
#301=CARTESIAN_POINT('',(-11.699999999999935,3.000000000000000,0.0));
#302=DIRECTION('',(1.0,0.0,0.0));
#303=VECTOR('',#302,10.199999999999935);
#304=LINE('',#301,#303);
#305=EDGE_CURVE('',#87,#300,#304,.T.);
#306=ORIENTED_EDGE('',*,*,#305,.F.);
#307=ORIENTED_EDGE('',*,*,#116,.T.);
#308=CARTESIAN_POINT('',(-1.500000000000000,-3.000000000000002,3.673819E-016));
#309=VERTEX_POINT('',#308);
#310=CARTESIAN_POINT('',(-1.500000000000000,-3.000000000000002,3.673819E-016));
#311=DIRECTION('',(-1.0,0.0,0.0));
#312=VECTOR('',#311,10.199999999999935);
#313=LINE('',#310,#312);
#314=EDGE_CURVE('',#309,#104,#313,.T.);
#315=ORIENTED_EDGE('',*,*,#314,.F.);
#316=CARTESIAN_POINT('',(-1.500000000000001,-2.828427124746193,1.000000000000000));
#317=VERTEX_POINT('',#316);
#318=CARTESIAN_POINT('',(-1.500000000000000,0.0,0.0));
#319=DIRECTION('',(-1.0,0.0,0.0));
#320=DIRECTION('',(0.0,1.0,0.0));
#321=AXIS2_PLACEMENT_3D('',#318,#319,#320);
#322=CIRCLE('',#321,3.000000000000002);
#323=EDGE_CURVE('',#309,#317,#322,.T.);
#324=ORIENTED_EDGE('',*,*,#323,.T.);
#325=CARTESIAN_POINT('',(-0.511350503861454,-2.828427124746194,1.000000000000000));
#326=VERTEX_POINT('',#325);
#327=CARTESIAN_POINT('',(-1.500000000000001,-2.828427124746193,1.000000000000000));
#328=DIRECTION('',(1.0,0.0,0.0));
#329=VECTOR('',#328,0.988649496138547);
#330=LINE('',#327,#329);
#331=EDGE_CURVE('',#317,#326,#330,.T.);
#332=ORIENTED_EDGE('',*,*,#331,.T.);
#333=CARTESIAN_POINT('',(-0.511350503861454,0.0,0.0));
#334=DIRECTION('',(1.0,0.0,0.0));
#335=DIRECTION('',(0.0,1.0,0.0));
#336=AXIS2_PLACEMENT_3D('',#333,#334,#335);
#337=CIRCLE('',#336,3.000000000000004);
#338=EDGE_CURVE('',#267,#326,#337,.T.);
#339=ORIENTED_EDGE('',*,*,#338,.F.);
#340=ORIENTED_EDGE('',*,*,#289,.F.);
#341=CARTESIAN_POINT('',(-1.500000000000001,2.828427124746193,1.000000000000000));
#342=VERTEX_POINT('',#341);
#343=CARTESIAN_POINT('',(-0.511350503861454,2.828427124746194,1.000000000000000));
#344=DIRECTION('',(-1.0,0.0,0.0));
#345=VECTOR('',#344,0.988649496138547);
#346=LINE('',#343,#345);
#347=EDGE_CURVE('',#276,#342,#346,.T.);
#348=ORIENTED_EDGE('',*,*,#347,.T.);
#349=CARTESIAN_POINT('',(-1.500000000000000,0.0,0.0));
#350=DIRECTION('',(-1.0,0.0,0.0));
#351=DIRECTION('',(0.0,1.0,0.0));
#352=AXIS2_PLACEMENT_3D('',#349,#350,#351);
#353=CIRCLE('',#352,3.000000000000002);
#354=EDGE_CURVE('',#342,#300,#353,.T.);
#355=ORIENTED_EDGE('',*,*,#354,.T.);
#356=EDGE_LOOP('',(#306,#307,#315,#324,#332,#339,#340,#348,#355));
#357=FACE_OUTER_BOUND('',#356,.T.);
#358=ADVANCED_FACE('',(#357),#298,.T.);
#359=CARTESIAN_POINT('',(0.0,6.250000000000000,1.000000000000000));
#360=DIRECTION('',(0.0,0.0,1.0));
#361=DIRECTION('',(1.0,0.0,0.0));
#362=AXIS2_PLACEMENT_3D('',#359,#360,#361);
#363=PLANE('',#362);
#364=ORIENTED_EDGE('',*,*,#331,.F.);
#365=CARTESIAN_POINT('',(-1.500000000000001,2.828427124746193,1.000000000000000));
#366=DIRECTION('',(0.0,-1.0,0.0));
#367=VECTOR('',#366,5.656854249492385);
#368=LINE('',#365,#367);
#369=EDGE_CURVE('',#342,#317,#368,.T.);
#370=ORIENTED_EDGE('',*,*,#369,.F.);
#371=ORIENTED_EDGE('',*,*,#347,.F.);
#372=ORIENTED_EDGE('',*,*,#282,.F.);
#373=CARTESIAN_POINT('',(-9.055901253505640,0.0,1.000000000000000));
#374=DIRECTION('',(0.0,0.0,1.0));
#375=DIRECTION('',(0.0,1.0,0.0));
#376=AXIS2_PLACEMENT_3D('',#373,#374,#375);
#377=CIRCLE('',#376,9.000519291310088);
#378=EDGE_CURVE('',#326,#265,#377,.T.);
#379=ORIENTED_EDGE('',*,*,#378,.F.);
#380=EDGE_LOOP('',(#364,#370,#371,#372,#379));
#381=FACE_OUTER_BOUND('',#380,.T.);
#382=ADVANCED_FACE('',(#381),#363,.F.);
#383=CARTESIAN_POINT('',(-1.500000000000000,-2.081668E-016,-1.648803E-016));
#384=DIRECTION('',(1.0,0.0,0.0));
#385=DIRECTION('',(0.0,0.0,-1.0));
#386=AXIS2_PLACEMENT_3D('',#383,#384,#385);
#387=PLANE('',#386);
#388=CARTESIAN_POINT('',(-1.500000000000001,-2.828427124746193,-1.000000000000000));
#389=VERTEX_POINT('',#388);
#390=CARTESIAN_POINT('',(-1.500000000000000,0.0,0.0));
#391=DIRECTION('',(-1.0,0.0,0.0));
#392=DIRECTION('',(0.0,1.0,0.0));
#393=AXIS2_PLACEMENT_3D('',#390,#391,#392);
#394=CIRCLE('',#393,3.000000000000002);
#395=EDGE_CURVE('',#389,#309,#394,.T.);
#396=ORIENTED_EDGE('',*,*,#395,.F.);
#397=CARTESIAN_POINT('',(-1.500000000000001,2.828427124746193,-1.000000000000000));
#398=VERTEX_POINT('',#397);
#399=CARTESIAN_POINT('',(-1.500000000000001,-2.828427124746193,-1.000000000000000));
#400=DIRECTION('',(0.0,1.0,0.0));
#401=VECTOR('',#400,5.656854249492385);
#402=LINE('',#399,#401);
#403=EDGE_CURVE('',#389,#398,#402,.T.);
#404=ORIENTED_EDGE('',*,*,#403,.T.);
#405=CARTESIAN_POINT('',(-1.500000000000000,0.0,0.0));
#406=DIRECTION('',(-1.0,0.0,0.0));
#407=DIRECTION('',(0.0,1.0,0.0));
#408=AXIS2_PLACEMENT_3D('',#405,#406,#407);
#409=CIRCLE('',#408,3.000000000000002);
#410=EDGE_CURVE('',#300,#398,#409,.T.);
#411=ORIENTED_EDGE('',*,*,#410,.F.);
#412=ORIENTED_EDGE('',*,*,#354,.F.);
#413=ORIENTED_EDGE('',*,*,#369,.T.);
#414=ORIENTED_EDGE('',*,*,#323,.F.);
#415=EDGE_LOOP('',(#396,#404,#411,#412,#413,#414));
#416=FACE_OUTER_BOUND('',#415,.T.);
#417=ADVANCED_FACE('',(#416),#387,.T.);
#418=CARTESIAN_POINT('',(0.0,-6.250000000000000,-1.000000000000000));
#419=DIRECTION('',(0.0,0.0,-1.0));
#420=DIRECTION('',(-1.0,0.0,0.0));
#421=AXIS2_PLACEMENT_3D('',#418,#419,#420);
#422=PLANE('',#421);
#423=CARTESIAN_POINT('',(-0.511350503861454,-2.828427124746194,-1.000000000000000));
#424=VERTEX_POINT('',#423);
#425=CARTESIAN_POINT('',(-0.511350503861454,-2.828427124746194,-1.000000000000000));
#426=DIRECTION('',(-1.0,0.0,0.0));
#427=VECTOR('',#426,0.988649496138547);
#428=LINE('',#425,#427);
#429=EDGE_CURVE('',#424,#389,#428,.T.);
#430=ORIENTED_EDGE('',*,*,#429,.F.);
#431=CARTESIAN_POINT('',(-9.055901253505640,6.661338E-017,-1.0));
#432=DIRECTION('',(0.0,0.0,-1.0));
#433=DIRECTION('',(0.0,-1.0,0.0));
#434=AXIS2_PLACEMENT_3D('',#431,#432,#433);
#435=CIRCLE('',#434,9.000519291310088);
#436=EDGE_CURVE('',#52,#424,#435,.T.);
#437=ORIENTED_EDGE('',*,*,#436,.F.);
#438=ORIENTED_EDGE('',*,*,#74,.F.);
#439=CARTESIAN_POINT('',(-1.500000000000001,2.828427124746193,-1.000000000000000));
#440=DIRECTION('',(1.0,0.0,0.0));
#441=VECTOR('',#440,0.988649496138547);
#442=LINE('',#439,#441);
#443=EDGE_CURVE('',#398,#61,#442,.T.);
#444=ORIENTED_EDGE('',*,*,#443,.F.);
#445=ORIENTED_EDGE('',*,*,#403,.F.);
#446=EDGE_LOOP('',(#430,#437,#438,#444,#445));
#447=FACE_OUTER_BOUND('',#446,.T.);
#448=ADVANCED_FACE('',(#447),#422,.F.);
#449=CARTESIAN_POINT('',(-6.105675251930696,0.0,0.0));
#450=DIRECTION('',(1.0,0.0,0.0));
#451=DIRECTION('',(0.0,1.0,0.0));
#452=AXIS2_PLACEMENT_3D('',#449,#450,#451);
#453=CYLINDRICAL_SURFACE('',#452,3.000000000000002);
#454=ORIENTED_EDGE('',*,*,#305,.T.);
#455=ORIENTED_EDGE('',*,*,#410,.T.);
#456=ORIENTED_EDGE('',*,*,#443,.T.);
#457=ORIENTED_EDGE('',*,*,#67,.F.);
#458=CARTESIAN_POINT('',(-0.511350503861454,0.0,0.0));
#459=DIRECTION('',(1.0,0.0,0.0));
#460=DIRECTION('',(0.0,1.0,0.0));
#461=AXIS2_PLACEMENT_3D('',#458,#459,#460);
#462=CIRCLE('',#461,3.000000000000004);
#463=EDGE_CURVE('',#424,#50,#462,.T.);
#464=ORIENTED_EDGE('',*,*,#463,.F.);
#465=ORIENTED_EDGE('',*,*,#429,.T.);
#466=ORIENTED_EDGE('',*,*,#395,.T.);
#467=ORIENTED_EDGE('',*,*,#314,.T.);
#468=CARTESIAN_POINT('',(-11.699999999999935,0.0,0.0));
#469=DIRECTION('',(1.0,0.0,0.0));
#470=DIRECTION('',(0.0,1.0,0.0));
#471=AXIS2_PLACEMENT_3D('',#468,#469,#470);
#472=CIRCLE('',#471,3.000000000000000);
#473=EDGE_CURVE('',#104,#87,#472,.T.);
#474=ORIENTED_EDGE('',*,*,#473,.T.);
#475=EDGE_LOOP('',(#454,#455,#456,#457,#464,#465,#466,#467,#474));
#476=FACE_OUTER_BOUND('',#475,.T.);
#477=ADVANCED_FACE('',(#476),#453,.T.);
#478=CARTESIAN_POINT('',(-9.055901253505640,0.0,0.0));
#479=DIRECTION('',(0.0,0.0,1.0));
#480=DIRECTION('',(1.0,0.0,0.0));
#481=AXIS2_PLACEMENT_3D('',#478,#479,#480);
#482=SPHERICAL_SURFACE('',#481,9.055901253505640);
#483=ORIENTED_EDGE('',*,*,#273,.T.);
#484=ORIENTED_EDGE('',*,*,#338,.T.);
#485=ORIENTED_EDGE('',*,*,#378,.T.);
#486=EDGE_LOOP('',(#483,#484,#485));
#487=FACE_OUTER_BOUND('',#486,.T.);
#488=ADVANCED_FACE('',(#487),#482,.T.);
#489=CARTESIAN_POINT('',(-22.0,0.600000000000003,0.0));
#490=DIRECTION('',(-1.0,0.0,0.0));
#491=DIRECTION('',(0.0,0.0,1.0));
#492=AXIS2_PLACEMENT_3D('',#489,#490,#491);
#493=PLANE('',#492);
#494=ORIENTED_EDGE('',*,*,#247,.F.);
#495=CARTESIAN_POINT('',(-22.0,0.0,0.0));
#496=DIRECTION('',(1.0,0.0,0.0));
#497=DIRECTION('',(0.0,1.0,0.0));
#498=AXIS2_PLACEMENT_3D('',#495,#496,#497);
#499=CIRCLE('',#498,1.200000000000006);
#500=EDGE_CURVE('',#241,#233,#499,.T.);
#501=ORIENTED_EDGE('',*,*,#500,.F.);
#502=EDGE_LOOP('',(#494,#501));
#503=FACE_OUTER_BOUND('',#502,.T.);
#504=ADVANCED_FACE('',(#503),#493,.T.);
#505=CARTESIAN_POINT('',(-21.850000000000005,0.0,0.0));
#506=DIRECTION('',(1.0,0.0,0.0));
#507=DIRECTION('',(0.0,1.0,0.0));
#508=AXIS2_PLACEMENT_3D('',#505,#506,#507);
#509=CONICAL_SURFACE('',#508,1.350000000000004,44.999999999999893);
#510=ORIENTED_EDGE('',*,*,#238,.T.);
#511=CARTESIAN_POINT('',(-21.700000000000003,0.0,0.0));
#512=DIRECTION('',(1.0,0.0,0.0));
#513=DIRECTION('',(0.0,1.0,0.0));
#514=AXIS2_PLACEMENT_3D('',#511,#512,#513);
#515=CIRCLE('',#514,1.500000000000002);
#516=EDGE_CURVE('',#209,#201,#515,.T.);
#517=ORIENTED_EDGE('',*,*,#516,.F.);
#518=ORIENTED_EDGE('',*,*,#253,.T.);
#519=ORIENTED_EDGE('',*,*,#500,.T.);
#520=EDGE_LOOP('',(#510,#517,#518,#519));
#521=FACE_OUTER_BOUND('',#520,.T.);
#522=ADVANCED_FACE('',(#521),#509,.T.);
#523=CARTESIAN_POINT('',(-19.600000000000005,0.0,0.0));
#524=DIRECTION('',(1.0,0.0,0.0));
#525=DIRECTION('',(0.0,1.0,0.0));
#526=AXIS2_PLACEMENT_3D('',#523,#524,#525);
#527=CYLINDRICAL_SURFACE('',#526,1.500000000000003);
#528=ORIENTED_EDGE('',*,*,#206,.T.);
#529=CARTESIAN_POINT('',(-17.500000000000004,0.0,0.0));
#530=DIRECTION('',(1.0,0.0,0.0));
#531=DIRECTION('',(0.0,1.0,0.0));
#532=AXIS2_PLACEMENT_3D('',#529,#530,#531);
#533=CIRCLE('',#532,1.500000000000003);
#534=EDGE_CURVE('',#177,#169,#533,.T.);
#535=ORIENTED_EDGE('',*,*,#534,.F.);
#536=ORIENTED_EDGE('',*,*,#221,.T.);
#537=ORIENTED_EDGE('',*,*,#516,.T.);
#538=EDGE_LOOP('',(#528,#535,#536,#537));
#539=FACE_OUTER_BOUND('',#538,.T.);
#540=ADVANCED_FACE('',(#539),#527,.T.);
#541=CARTESIAN_POINT('',(-17.466506350946112,0.0,0.0));
#542=DIRECTION('',(-1.0,0.0,0.0));
#543=DIRECTION('',(0.0,1.0,0.0));
#544=AXIS2_PLACEMENT_3D('',#541,#542,#543);
#545=CONICAL_SURFACE('',#544,1.375000000000001,75.000000000000099);
#546=ORIENTED_EDGE('',*,*,#174,.T.);
#547=CARTESIAN_POINT('',(-17.433012701892221,0.0,0.0));
#548=DIRECTION('',(1.0,0.0,0.0));
#549=DIRECTION('',(0.0,1.0,0.0));
#550=AXIS2_PLACEMENT_3D('',#547,#548,#549);
#551=CIRCLE('',#550,1.249999999999999);
#552=EDGE_CURVE('',#137,#127,#551,.T.);
#553=ORIENTED_EDGE('',*,*,#552,.F.);
#554=ORIENTED_EDGE('',*,*,#189,.T.);
#555=ORIENTED_EDGE('',*,*,#534,.T.);
#556=EDGE_LOOP('',(#546,#553,#554,#555));
#557=FACE_OUTER_BOUND('',#556,.T.);
#558=ADVANCED_FACE('',(#557),#545,.T.);
#559=CARTESIAN_POINT('',(-14.716506350946098,0.0,0.0));
#560=DIRECTION('',(1.0,0.0,0.0));
#561=DIRECTION('',(0.0,1.0,0.0));
#562=AXIS2_PLACEMENT_3D('',#559,#560,#561);
#563=CYLINDRICAL_SURFACE('',#562,1.249999999999999);
#564=ORIENTED_EDGE('',*,*,#134,.T.);
#565=CARTESIAN_POINT('',(-11.999999999999975,0.0,0.0));
#566=DIRECTION('',(1.0,0.0,0.0));
#567=DIRECTION('',(0.0,1.0,0.0));
#568=AXIS2_PLACEMENT_3D('',#565,#566,#567);
#569=CIRCLE('',#568,1.249999999999998);
#570=EDGE_CURVE('',#146,#129,#569,.T.);
#571=ORIENTED_EDGE('',*,*,#570,.F.);
#572=ORIENTED_EDGE('',*,*,#151,.T.);
#573=ORIENTED_EDGE('',*,*,#552,.T.);
#574=EDGE_LOOP('',(#564,#571,#572,#573));
#575=FACE_OUTER_BOUND('',#574,.T.);
#576=ADVANCED_FACE('',(#575),#563,.T.);
#577=CARTESIAN_POINT('',(-11.999999999999957,1.975000000000000,0.0));
#578=DIRECTION('',(-1.0,0.0,0.0));
#579=DIRECTION('',(0.0,0.0,1.0));
#580=AXIS2_PLACEMENT_3D('',#577,#578,#579);
#581=PLANE('',#580);
#582=ORIENTED_EDGE('',*,*,#101,.F.);
#583=CARTESIAN_POINT('',(-11.999999999999941,0.0,0.0));
#584=DIRECTION('',(1.0,0.0,0.0));
#585=DIRECTION('',(0.0,1.0,0.0));
#586=AXIS2_PLACEMENT_3D('',#583,#584,#585);
#587=CIRCLE('',#586,2.700000000000001);
#588=EDGE_CURVE('',#95,#85,#587,.T.);
#589=ORIENTED_EDGE('',*,*,#588,.F.);
#590=EDGE_LOOP('',(#582,#589));
#591=FACE_OUTER_BOUND('',#590,.T.);
#592=ORIENTED_EDGE('',*,*,#158,.T.);
#593=ORIENTED_EDGE('',*,*,#570,.T.);
#594=EDGE_LOOP('',(#592,#593));
#595=FACE_BOUND('',#594,.T.);
#596=ADVANCED_FACE('',(#591,#595),#581,.T.);
#597=CARTESIAN_POINT('',(-11.849999999999937,0.0,0.0));
#598=DIRECTION('',(1.0,0.0,0.0));
#599=DIRECTION('',(0.0,1.0,0.0));
#600=AXIS2_PLACEMENT_3D('',#597,#598,#599);
#601=CONICAL_SURFACE('',#600,2.850000000000001,44.999999999999311);
#602=ORIENTED_EDGE('',*,*,#92,.T.);
#603=ORIENTED_EDGE('',*,*,#473,.F.);
#604=ORIENTED_EDGE('',*,*,#109,.T.);
#605=ORIENTED_EDGE('',*,*,#588,.T.);
#606=EDGE_LOOP('',(#602,#603,#604,#605));
#607=FACE_OUTER_BOUND('',#606,.T.);
#608=ADVANCED_FACE('',(#607),#601,.T.);
#609=CARTESIAN_POINT('',(-9.055901253505640,0.0,0.0));
#610=DIRECTION('',(0.0,0.0,1.0));
#611=DIRECTION('',(1.0,0.0,0.0));
#612=AXIS2_PLACEMENT_3D('',#609,#610,#611);
#613=SPHERICAL_SURFACE('',#612,9.055901253505640);
#614=ORIENTED_EDGE('',*,*,#58,.T.);
#615=ORIENTED_EDGE('',*,*,#436,.T.);
#616=ORIENTED_EDGE('',*,*,#463,.T.);
#617=EDGE_LOOP('',(#614,#615,#616));
#618=FACE_OUTER_BOUND('',#617,.T.);
#619=ADVANCED_FACE('',(#618),#613,.T.);
#620=CLOSED_SHELL('',(#78,#120,#162,#194,#226,#258,#293,#358,#382,#417,#448,#477,#488,#504,#522,#540,#558,#576,#596,#608,#619));
#621=MANIFOLD_SOLID_BREP('',#620);
#622=COLOUR_RGB('Zink',0.678431391716003,0.768627464771271,0.811764717102051);
#623=FILL_AREA_STYLE_COLOUR('Zink',#622);
#624=FILL_AREA_STYLE('Zink',(#623));
#625=SURFACE_STYLE_FILL_AREA(#624);
#626=SURFACE_SIDE_STYLE('Zink',(#625));
#627=SURFACE_STYLE_USAGE(.BOTH.,#626);
#628=PRESENTATION_STYLE_ASSIGNMENT((#627));
#629=STYLED_ITEM('',(#628),#621);
#630=MECHANICAL_DESIGN_GEOMETRIC_PRESENTATION_REPRESENTATION('',(#629),#36);
#631=ADVANCED_BREP_SHAPE_REPRESENTATION('ABSR',(#621),#36);
#632=SHAPE_REPRESENTATION_RELATIONSHIP('SRR','None',#631,#41);
ENDSEC;
END-ISO-10303-21;
